Názov skladby
    
Interpret, Skladateľ
    
Kúsok textu
    

Texty pesničiek:
A B C D E F G H
I J K L M N O P
Q R S T U V W X
Y Z ...

Interpreti:
A B C D E F G H
I J K L M N O P
Q R S T U V W X
Y Z ...

Pridaj pesničku
Opraviť chybu
Hudobné stránky
Podporte nás
info@akordytexty.sk



Telegraf [-] Transpozícia [+]   Tlač textu     


Karin

Telegraf



   A                  E                  F     G  F   A
1. Do tmy zní volání. Ozvěna vrací jméno tvý a já dál sním.
          A              E           D    (*)
   Vrátit chtěl bych zas čas, tebe s ním.

2. Čas sladkých vyznání, nikdy už nevrátí se k nám, už ztich tvůj smích.
   Jen zvony vyznání, dunění plný černý chrám, úúúúúááá.

R. Po všech zde píšu jméno tvý - má Karin.
   Nevěřím, že musela's mi lhát.

3. Neznal jsem tajemství skrývaná pod tvým usměvem, čas krutých her.
   Prohry i ztráty tvý, bezedná propast bílých stěn, úúúááá.

R. Po všech zde píšu jméno tvý - má Karin.
   Nevěřím, že musela's mi lhát.

   A   G#              G        F#           A       E         A  D
X. Tvá smrt má příchuť vysvobození, ze všech pout co jehla umí dát.
   A   G#        G        F#  A            E          A  D
   Tvá smrt tíží jako kamení, stává se jen co se musí stát.

4. Chci vážit na gramy, přes bílý závoj vnímat svět - a co dál.
   Krutý je poznání, nikdy se nesmět vrátit zpět, úúúááá.

R. Po všech zde píšu jméno tvý - má Karin.
   Nevěřím, že musela's mi lhát.

   Tvá smrt má příchuť vysvobození, ze všech pout co jehla umí dát.
   Tvá smrt tíží jako kamení, stává se jen co se musí stát.

   sólo

R. Po všech zde píšu jméno tvý - má Karin.
   Nevěřím, že musela's mi lhát.

   Tvá smrt má příchuť vysvobození, ze všech pout co jehla umí dát.
   Tvá smrt tíží jako kamení, stává se jen co se musí stát.

   Má Karin.


(*)          sl     sl sl
  d-|-----7-9-10---9-10-9--|-7---|
  A-|-7-9------------------|-----|
  E-|----------------------|-----|

Sólo:                      p
  g-|-9-9-6-------6-|-9---9-7-6-------------6-|
  d-|-------5---5---|-------------5-----5-----|
  A-|---------------|-------------------------|
  E-|---------------|-------------------------|

  e-|-------7---7--------|---|------------------------|
  h-|-10-9--------10-9---|---|------------------------|
  g-|------9-----------9-|-9-|-10--9-10-12-10---9-10--|
                                h
          h
  e-|------------10---8-------|------------|---------|
  h-|-8--8-12-8---------12-8--|-10---8---8-|-10------|
  g-|-------------------------|--------9---|---------|