Názov skladby
    
Interpret, Skladateľ
    
Kúsok textu
    

Texty pesničiek:
A B C D E F G H
I J K L M N O P
Q R S T U V W X
Y Z ...

Interpreti:
A B C D E F G H
I J K L M N O P
Q R S T U V W X
Y Z ...

Pridaj pesničku
Opraviť chybu
Hudobné stránky
Podporte nás
info@akordytexty.sk



Zóna A [-] Transpozícia [+]   Tlač textu     


Útok na špicu hitparády

Zóna A



E|----------------------------
H|---------------------8-7-7--
G|---676-----676-----67---9---
D|-9-------9-------9----------
A|----------------------------
E|----------------------------


Hmi        F#mi      G       F#  
Chceme mať peniaze a veľa slávy
Hmi       F#mi      G            F#  
chceme sa dostať na špicu hitparády
dajte nám možnosť rýchlej kariéry
veď my sme šanca budúcej éry


E|-----------------------------------
H|-------------------------7---------
G|---679-67--679-67--679-79----967---
D|-9-------9-------9--------------9--
A|-----------------------------------
E|-----------------------------------


Ak chcete peniaze a veľa slávy
zahoďte česť aj svoje ideály
dáme vám možnosť rýchlej kariéry
veď vy ste šanca budúcej éry

   Hmi  F#mi
®: Útok 
G        F#         
na špicu hitparády

Hmi     F#mi  G   
Útok la lá lá lá
         F#         
na špicu hitparády

...shutup