Názov skladby
    
Interpret, Skladateľ
    
Kúsok textu
    

Texty pesničiek:
A B C D E F G H
I J K L M N O P
Q R S T U V W X
Y Z ...

Interpreti:
A B C D E F G H
I J K L M N O P
Q R S T U V W X
Y Z ...

Pridaj pesničku
Opraviť chybu
Hudobné stránky
Podporte nás
info@akordytexty.sk



Led Zeppelin [-] Transpozícia [+]   Tlač textu     


In My Time Of Dying

Led Zeppelin



Transcribed by crankle@host.sk


Tuning : E A D G B E 	Time Signature 4/4

  |       |       |       |          |       |       |       |         
|----------------------------------|----------------------------------|
|----------------------------------|----------------------------------|
|-3/--2/--0-----2/--3/--5---0-3/---|-2/--0---1/--12------3/--2/--0----|
|-3/--2/--0-----2/--3/--5---0-3/---|-2/--0---1/--12------3/--2/--0----|
|----------------------------------|----------------------------------|
|----------------------------------|----------------------------------|

  |       |       |       |          |       |       |       |         
|----------------------------------|----------------------------------|
|----------------------------------|----------------------------------|
|---2/--3/--5---0-1/--3/--0--------|-0-3-----5-----0---5---0---7/--3--|
|---2/--3/--5---0-1/--3/--0--------|-0-3-----5-----0---5---0---7/--3--|
|----------------------------------|----------------------------------|
|----------------------------------|----------------------------------|

  |       |       |       |          |       |       |       |         
|----------------------------------|----------------------------------|
|----------------------------------|----------------------------------|
|---0------------------------------|-0-3---5-------5/--7-0---3/5-0----|
|---0------------------------------|-0-3---5-------5/--7-0---3/5-0----|
|----------------------------------|----------------------------------|
|----------------------------------|----------------------------------|

  |       |       |       |          |       |       |       |         
|----------------------------------|----------------------------------|
|----------------------------------|----------------------------------|
|-1/3-0----------------------------|----------------------------------|
|-1/3-0----------------------------|----------------------------------|
|----------------------------------|----------------------------------|
|----------------------------------|----------------------------------|

  |       |       |       |          |       |       |       |         
|----------------------------------|----------------------------------|
|----------------------------------|----------------------------------|
|----------------------------------|----------------------------------|
|----------------------------------|----------------------------------|
|----------------------------------|----------------------------------|
|----------------------------------|----------------------------------|

  |       |       |       |          |       |       |       |         
|----------------------------------|----------------------------------|
|----------------------------------|----------------------------------|
|----------------------------------|----------------------------------|
|----------------------------------|----------------------------------|
|----------------------------------|----------------------------------|
|----------------------------------|----------------------------------|

  |       |       |       |          |       |       |       |         
|----------------------------------|----------------------------------|
|----------------------------------|----------------------------------|
|----------------------------------|----------------------------------|
|----------------------------------|----------------------------------|
|----------------------------------|----------------------------------|
|----------------------------------|----------------------------------|

  |       |       |       |          |       |       |       |         
|----------------------------------|----------------------------------|
|----------------------------------|----------------------------------|
|----------------------------------|----------------------------------|
|----------------------------------|----------------------------------|
|----------------------------------|----------------------------------|
|----------------------------------|----------------------------------|