Názov skladby
    
Interpret, Skladateľ
    
Kúsok textu
    

Texty pesničiek:
A B C D E F G H
I J K L M N O P
Q R S T U V W X
Y Z ...

Interpreti:
A B C D E F G H
I J K L M N O P
Q R S T U V W X
Y Z ...

Pridaj pesničku
Opraviť chybu
Hudobné stránky
Podporte nás
info@akordytexty.sk



Blink 182 [-] Transpozícia [+]   Tlač textu     


First Date - taby

Blink 182



C/B  x255xx

Intro
b---5p3---------3-----------3-----------3-------- x2
g------4-5-5------5-4-5-5-----5-4-5-5-----5-4-5-5

Verse
C, G, F

Bridge
C, C/B, A, F, G

Chorus
C, C/B, A, F, G

Solo/Interlude
E  x799xx
F  x81010xx

p.m.
C, E, F, D

potom
g--5--5-----9--5-----10--5---7--7
a--------------------------------
a--3--3-----7--3------8--3---5--5
I didn’t tab how many times you’ve got to play each chord but their in the right order

Bridge
Chorus
Chorus
with Intro in backround
end on C

-------------------------------------------------
alebo


standard tuning

intro riff
-0-----------------------------------|------------------------------------------
---1--1---3-1--1--3-1--1--3-1--0-0-x2|-1----------------------------------------
-------------------------------------|------------------------------------------
-------------------------------------|------------------------------------------
-------------------------------------|------------------------------------------
-------------------------------------|------------------------------------------

guitar verse
pm. . . . . . . . . . . . . . . . . . . . . . . . . . . .
------------------------------------------------------------------------------
------------------------------------------------------------------------------
--55-555-55-555-55-555-55-555-55-555-55-555-55-555-55-555---------------------
------------------------------------------------------------------------------
------------------------------------------------------------------------------
------------------------------------------------------------------------------

pre-chorus x2             Chorus x2
-------------------------|----------------------------------------------------
-------------------------|----------------------------------------------------
-555-444-2-2-2-2---------|-555555554444444422222222-----------------------------
-555-444-2-2-2-2-3-3-5-5-|-555555554444444422222222-3-3-5-5---------------------
-333-222-0-0-0-0-3-3-5-5-|-333333332222222200000000-3-3-5-5---------------------
-----------------1-1-3-3-|--------------------------1-1-3-3----------------------

Bridge x2
----------------------------------------|-------------------------------------
----------------------------------------|-------------------------------------
-55555555-------------------------------|-------------------------------------
-55555555--22222222--33333333--55555555-|-------------------------------------
-33333333--22222222--33333333--55555555-|-------------------------------------
-----------00000000--11111111--33333333-|-------------------------------------

x4
--------------------------------------------------|---------------------------
--------------------------------------------------|---------------------------
--555555--999955--1010101055--7777777-7--------|---------------------------
--------------------------------------------------|---------------------------
--333333--777733--8-8-8-8-55--5555555-5--------|---------------------------
--------------------------------------------------|---------------------------

Intro riff
Bass verse
Guitar verse
Pre-chorus
Chorus
Intro riff
Bass verse
Guitar verse
Pre-chorus
Chorus
Bridge
Solo
Pre-chorus
Chorus
Intro Riff
End on C5