Názov skladby
    
Interpret, Skladateľ
    
Kúsok textu
    

Texty pesničiek:
A B C D E F G H
I J K L M N O P
Q R S T U V W X
Y Z ...

Interpreti:
A B C D E F G H
I J K L M N O P
Q R S T U V W X
Y Z ...

Pridaj pesničku
Opraviť chybu
Hudobné stránky
Podporte nás
info@akordytexty.sk



Led Zeppelin [-] Transpozícia [+]   Tlač textu     


Ten Years Gone

Led Zeppelin




Ten Years Gone
Led Zeppelin
Physical Graffiti

From: crankle@host.sk
Date: 15. 05. 1995, opravené 6. 05. 2002
Štandardné naladenie (eBGDAE)

Toto je úvodný grif, vyskytuje sa vo viacerých častiach piesne (určite to poznáte, tak sa potrápte), niektoré časti ešte chýbajú, nad sólom som ani nepremýšľal, je to na vás.
|---------------------|----------------|---------------------|---------------|

  |---2-(2)-----------3-|-3--------3-----|----------2-5------3-|-3-3-3---------|
|---2-(2)-4-2-4-(4)-2-|-2------2---2---|-2--------2--------2-|-2-----2-------|
|---2-(2)-----------3-|-3----3-------3-|-2--------2----7-9-3-|-3-------3-----|
|-0-0-(0)-----------0-|-0-0------------|-0--0-(0)-0--------0-|-0-------------|
|---------------------|----------------|---------------------|---------------|


|----------------------|-7-7-7-------------------|-----------------------------|
|-2-2-2-2-(2)-1-1-1--1-|-8-8-8---7-7-7-7-5-(5)---|-----------------------------|
|-2-2-2-2-(2)-2-2-2--1-|-9-9-9---6-6-6-6-4-(4)---|-----------------------2-4-2-|
|-2-2-2-2-(2)-1-1-2--1-|-9-9-9---7-7-7-7-5-(5)---|----------2-3-2-(2)----2-2-2-|
|-0-0------------------|-------------------------|-----0-3-------------0-------|
|----------------------|-------------------------|-2-3-------------------------|


|-------------------|--------------------------|-------------------|
|-0-0-0-2-----------|----------2---------------|-0-0-0-2-----------|
|-0-0-0-0-2---2-4-2-|-2-2-2-4--2---2-4-2-(2)---|-0-0-0-0-2---2-4-2-|
|---------4---4-4-4-|-3-3-3-3--2---2-2-2-(2)---|---------4---4-4-4-|
|-----------0-------|------------0-------------|-----------0-------|
|-------------------|--------------------------|-------------------|


|-------------------------|-------------------|-------------------------|
|---------2---------------|-0-0-0-2-----------|---------2---------------|
|-2-2-2-4-2---2-4-2-(2)---|-0-0-0-0-2---2-4-2-|-2-2-2-4-2---2-4-2-(2)---|
|-3-3-3-3-2---2-2-2-(2)---|---------4---4-4-4-|-3-3-3-3-2---2-2-2-(2)---|
|-----------0-------------|-----------0-------|-----------0-------------|
|-------------------------|-------------------|-------------------------|


|-------------------|-------------------------|---------------------*|
|-0-0-0-2-----------|----------2-(2)--------3-|-------3-(3)---------*|
|-0-0-0-0-2---2-4-2-|-2-2-2--4-2-(2)-4-2--4-2-|-----2-------2-------*|
|---------4---4-4-4-|-3-3-3----2-(2)--------3-|---3-----------3-----*|
|-----------0-------|-----------------------0-|-0-------------------*|
|-------------------|-------------------------|---------------------*|