Názov skladby
    
Interpret, Skladateľ
    
Kúsok textu
    

Texty pesničiek:
A B C D E F G H
I J K L M N O P
Q R S T U V W X
Y Z ...

Interpreti:
A B C D E F G H
I J K L M N O P
Q R S T U V W X
Y Z ...

Pridaj pesničku
Opraviť chybu
Hudobné stránky
Podporte nás
info@akordytexty.sk



Nezařazeno - ostatní texty písní [-] Transpozícia [+]   Tlač textu     


Foggy Mountain Breakdown

Nezařazeno - ostatní texty písní



 |       |       |       |        |       |       |       |        
|--------------------------------|--------------------------------|
|------------------------0-------|1-------3-------1-------0-------|
|0---0---0-------2---------------|--------------------------------|
|--------------------------------|--------------------------------|
|--------------------------------|--------------------------------|

 |       |       |       |        |       |       |       |        
|--------------------------------|--------------------------------|
|------------------------0-------|1-------3-------1-------0-------|
|0---0---0-------2---------------|--------------------------------|
|--------------------------------|--------------------------------|
|--------------------------------|--------------------------------|

 |       |       |       |        |       |       |       |        
|0---0---0-------2-------4-------|5-------7-------5-------4-------|
|--------------------------------|--------------------------------|
|--------------------------------|--------------------------------|
|--------------------------------|--------------------------------|
|--------------------------------|--------------------------------|

 |       |       |       |        |       |       |       |        
|0---0---0-------2-------0-------|----------------0---0---0-------|
|0---0---0-------1-------0-------|----------------0---0---0-------|
|0---0---0-------0-------0-------|----------------0---0---0-------|
|0---0---0-------2-------0-------|----------------0---0---0-------|
|--------------------------------|--------------------------------|

 |       |       |       |        |       |       |       |        
|2-------0-----------------------|--------------------------------|
|1-------0-----------------------|0---1---3---0---1-------0-------|
|0-------0-----------------------|--------------------2-------0---|
|2-------0-----------------------|--------------------------------|
|--------------------------------|--------------------------------|

 |       |       |       |        |       |       |       |        
|--------------------------------|--------------------------------|
|--------0---1---3---0---1-------|0-------------------------------|
|2---------------------------2---|----0---2-----------------------|
|--------------------------------|--------------------------------|
|--------------------------------|--------------------------------|

 |       |       |       |        |       |       |       |        
|--------------------------------|--------------------------------|
|------------0-------0-----------|------------0-------------------|
|0---0---2-------0-------2-------|0---0---2-------0---------------|
|--------------------------------|------------------------4-------|
|--------------------------------|--------------------------------|

 |       |       |       |        
|--------------------------------|
|--------------------------------|
|--------------------------------|
|--------------------------------|
|--------------------------------|